  0
SECTION
  2
HEADER
  9
$ACADVER
  1
AC1015
  9
$ACADMAINTVER
 70
     6
  9
$DWGCODEPAGE
  3
ANSI_1254
  9
$INSBASE
 10
0.0
 20
0.0
 30
0.0
  9
$EXTMIN
 10
0.0
 20
0.0
 30
0.0
  9
$EXTMAX
 10
279.4
 20
215.9
 30
0.0
  9
$LIMMIN
 10
0.0
 20
0.0
  9
$LIMMAX
 10
279.4
 20
215.9
  9
$ORTHOMODE
 70
     0
  9
$REGENMODE
 70
     1
  9
$FILLMODE
 70
     1
  9
$QTEXTMODE
 70
     0
  9
$MIRRTEXT
 70
     1
  9
$LTSCALE
 40
1.0
  9
$ATTMODE
 70
     1
  9
$TEXTSIZE
 40
3.5
  9
$TRACEWID
 40
1.0
  9
$TEXTSTYLE
  7
Standard
  9
$CLAYER
  8
0
  9
$CELTYPE
  6
ByLayer
  9
$CECOLOR
 62
   256
  9
$CELTSCALE
 40
1.0
  9
$DISPSILH
 70
     0
  9
$DIMSCALE
 40
1.0
  9
$DIMASZ
 40
3.5
  9
$DIMEXO
 40
1.0
  9
$DIMDLI
 40
3.75
  9
$DIMRND
 40
0.0
  9
$DIMDLE
 40
0.0
  9
$DIMEXE
 40
1.0
  9
$DIMTP
 40
0.0
  9
$DIMTM
 40
0.0
  9
$DIMTXT
 40
3.5
  9
$DIMCEN
 40
2.5
  9
$DIMTSZ
 40
0.0
  9
$DIMTOL
 70
     0
  9
$DIMLIM
 70
     0
  9
$DIMTIH
 70
     1
  9
$DIMTOH
 70
     1
  9
$DIMSE1
 70
     0
  9
$DIMSE2
 70
     0
  9
$DIMTAD
 70
     1
  9
$DIMZIN
 70
     0
  9
$DIMBLK
  1

  9
$DIMASO
 70
     1
  9
$DIMSHO
 70
     1
  9
$DIMPOST
  1

  9
$DIMAPOST
  1

  9
$DIMALT
 70
     0
  9
$DIMALTD
 70
     3
  9
$DIMALTF
 40
0.0393700787
  9
$DIMLFAC
 40
1.0
  9
$DIMTOFL
 70
     1
  9
$DIMTVP
 40
0.0
  9
$DIMTIX
 70
     0
  9
$DIMSOXD
 70
     0
  9
$DIMSAH
 70
     0
  9
$DIMBLK1
  1

  9
$DIMBLK2
  1

  9
$DIMSTYLE
  2
ISO-25
  9
$DIMCLRD
 70
     0
  9
$DIMCLRE
 70
     0
  9
$DIMCLRT
 70
     0
  9
$DIMTFAC
 40
1.0
  9
$DIMGAP
 40
1.524
  9
$DIMJUST
 70
     0
  9
$DIMSD1
 70
     0
  9
$DIMSD2
 70
     0
  9
$DIMTOLJ
 70
     0
  9
$DIMTZIN
 70
     0
  9
$DIMALTZ
 70
     0
  9
$DIMALTTZ
 70
     0
  9
$DIMUPT
 70
     0
  9
$DIMDEC
 70
     2
  9
$DIMTDEC
 70
     2
  9
$DIMALTU
 70
     2
  9
$DIMALTTD
 70
     3
  9
$DIMTXSTY
  7
Standard
  9
$DIMAUNIT
 70
     0
  9
$DIMADEC
 70
     2
  9
$DIMALTRND
 40
0.0
  9
$DIMAZIN
 70
     0
  9
$DIMDSEP
 70
    44
  9
$DIMATFIT
 70
     3
  9
$DIMFRAC
 70
     0
  9
$DIMLDRBLK
  1

  9
$DIMLUNIT
 70
     2
  9
$DIMLWD
 70
    -2
  9
$DIMLWE
 70
    -2
  9
$DIMTMOVE
 70
     0
  9
$LUNITS
 70
     2
  9
$LUPREC
 70
     2
  9
$SKETCHINC
 40
1.0
  9
$FILLETRAD
 40
10.0
  9
$AUNITS
 70
     0
  9
$AUPREC
 70
     2
  9
$MENU
  1
.
  9
$ELEVATION
 40
0.0
  9
$PELEVATION
 40
0.0
  9
$THICKNESS
 40
0.0
  9
$LIMCHECK
 70
     0
  9
$CHAMFERA
 40
0.0
  9
$CHAMFERB
 40
0.0
  9
$CHAMFERC
 40
0.0
  9
$CHAMFERD
 40
0.0
  9
$SKPOLY
 70
     0
  9
$TDCREATE
 40
2459935.699862916
  9
$TDUCREATE
 40
2459935.574862916
  9
$TDUPDATE
 40
2459935.69986309
  9
$TDUUPDATE
 40
2459935.57486309
  9
$TDINDWG
 40
0.0000000116
  9
$TDUSRTIMER
 40
0.0000000116
  9
$USRTIMER
 70
     1
  9
$ANGBASE
 50
0.0
  9
$ANGDIR
 70
     0
  9
$PDMODE
 70
     0
  9
$PDSIZE
 40
-1.0
  9
$PLINEWID
 40
0.0
  9
$SPLFRAME
 70
     0
  9
$SPLINETYPE
 70
     6
  9
$SPLINESEGS
 70
     8
  9
$HANDSEED
  5
ED
  9
$SURFTAB1
 70
     6
  9
$SURFTAB2
 70
     6
  9
$SURFTYPE
 70
     6
  9
$SURFU
 70
     6
  9
$SURFV
 70
     6
  9
$UCSBASE
  2

  9
$UCSNAME
  2

  9
$UCSORG
 10
0.0
 20
0.0
 30
0.0
  9
$UCSXDIR
 10
1.0
 20
0.0
 30
0.0
  9
$UCSYDIR
 10
0.0
 20
1.0
 30
0.0
  9
$UCSORTHOREF
  2

  9
$UCSORTHOVIEW
 70
     0
  9
$UCSORGTOP
 10
0.0
 20
0.0
 30
0.0
  9
$UCSORGBOTTOM
 10
0.0
 20
0.0
 30
0.0
  9
$UCSORGLEFT
 10
0.0
 20
0.0
 30
0.0
  9
$UCSORGRIGHT
 10
0.0
 20
0.0
 30
0.0
  9
$UCSORGFRONT
 10
0.0
 20
0.0
 30
0.0
  9
$UCSORGBACK
 10
0.0
 20
0.0
 30
0.0
  9
$PUCSBASE
  2

  9
$PUCSNAME
  2

  9
$PUCSORG
 10
0.0
 20
0.0
 30
0.0
  9
$PUCSXDIR
 10
1.0
 20
0.0
 30
0.0
  9
$PUCSYDIR
 10
0.0
 20
1.0
 30
0.0
  9
$PUCSORTHOREF
  2

  9
$PUCSORTHOVIEW
 70
     0
  9
$PUCSORGTOP
 10
0.0
 20
0.0
 30
0.0
  9
$PUCSORGBOTTOM
 10
0.0
 20
0.0
 30
0.0
  9
$PUCSORGLEFT
 10
0.0
 20
0.0
 30
0.0
  9
$PUCSORGRIGHT
 10
0.0
 20
0.0
 30
0.0
  9
$PUCSORGFRONT
 10
0.0
 20
0.0
 30
0.0
  9
$PUCSORGBACK
 10
0.0
 20
0.0
 30
0.0
  9
$USERI1
 70
     0
  9
$USERI2
 70
     0
  9
$USERI3
 70
     0
  9
$USERI4
 70
     0
  9
$USERI5
 70
     0
  9
$USERR1
 40
0.0
  9
$USERR2
 40
0.0
  9
$USERR3
 40
0.0
  9
$USERR4
 40
0.0
  9
$USERR5
 40
0.0
  9
$WORLDVIEW
 70
     1
  9
$SHADEDGE
 70
     3
  9
$SHADEDIF
 70
    70
  9
$TILEMODE
 70
     1
  9
$MAXACTVP
 70
    64
  9
$PINSBASE
 10
0.0
 20
0.0
 30
0.0
  9
$PLIMCHECK
 70
     0
  9
$PEXTMIN
 10
1.0000000000E+20
 20
1.0000000000E+20
 30
1.0000000000E+20
  9
$PEXTMAX
 10
-1.0000000000E+20
 20
-1.0000000000E+20
 30
-1.0000000000E+20
  9
$PLIMMIN
 10
0.0
 20
0.0
  9
$PLIMMAX
 10
420.0
 20
297.0
  9
$UNITMODE
 70
     0
  9
$VISRETAIN
 70
     1
  9
$PLINEGEN
 70
     0
  9
$PSLTSCALE
 70
     1
  9
$TREEDEPTH
 70
  3020
  9
$CMLSTYLE
  2
Standard
  9
$CMLJUST
 70
     0
  9
$CMLSCALE
 40
20.0
  9
$PROXYGRAPHICS
 70
     1
  9
$MEASUREMENT
 70
     1
  9
$CELWEIGHT
370
    -1
  9
$ENDCAPS
280
     0
  9
$JOINSTYLE
280
     0
  9
$LWDISPLAY
290
     1
  9
$INSUNITS
 70
     4
  9
$HYPERLINKBASE
  1

  9
$STYLESHEET
  1

  9
$XEDIT
290
     1
  9
$CEPSNTYPE
380
     0
  9
$PSTYLEMODE
290
     1
  9
$FINGERPRINTGUID
  2
{34740451-dded-4e52-8b79-76dca0085a09}
  9
$VERSIONGUID
  2
{FAEB1C32-E019-11D5-929B-00C0DF256EC4}
  9
$EXTNAMES
290
     1
  9
$PSVPSCALE
 40
0.0
  9
$OLESTARTUP
290
     0
  0
ENDSEC
  0
SECTION
  2
CLASSES
  0
CLASS
  1
ACDBDICTIONARYWDFLT
  2
AcDbDictionaryWithDefault
  3
ObjectDBX Classes
 90
        0
280
     0
281
     0
  0
CLASS
  1
VISUALSTYLE
  2
AcDbVisualStyle
  3
ObjectDBX Classes
 90
     4095
280
     0
281
     0
  0
CLASS
  1
MATERIAL
  2
AcDbMaterial
  3
ObjectDBX Classes
 90
     1153
280
     0
281
     0
  0
CLASS
  1
SCALE
  2
AcDbScale
  3
ObjectDBX Classes
 90
     1153
280
     0
281
     0
  0
CLASS
  1
TABLESTYLE
  2
AcDbTableStyle
  3
ObjectDBX Classes
 90
     4095
280
     0
281
     0
  0
CLASS
  1
MLEADERSTYLE
  2
AcDbMLeaderStyle
  3
ACDB_MLEADERSTYLE_CLASS
 90
     4095
280
     0
281
     0
  0
CLASS
  1
SUN
  2
AcDbSun
  3
SCENEOE
 90
     1153
280
     0
281
     0
  0
CLASS
  1
ACDBPLACEHOLDER
  2
AcDbPlaceHolder
  3
ObjectDBX Classes
 90
        0
280
     0
281
     0
  0
CLASS
  1
LAYOUT
  2
AcDbLayout
  3
ObjectDBX Classes
 90
        0
280
     0
281
     0
  0
ENDSEC
  0
SECTION
  2
TABLES
  0
TABLE
  2
VPORT
  5
8
330
0
100
AcDbSymbolTable
 70
     1
  0
VPORT
  5
29
330
8
100
AcDbSymbolTableRecord
100
AcDbViewportTableRecord
  2
*Active
 70
     0
 10
0.0
 20
0.0
 11
1.0
 21
1.0
 12
139.7
 22
107.95
 13
0.0
 23
0.0
 14
10.0
 24
10.0
 15
10.0
 25
10.0
 16
0.0
 26
0.0
 36
1.0
 17
0.0
 27
0.0
 37
0.0
 40
215.9
 41
1.2941176471
 42
50.0
 43
0.0
 44
0.0
 50
0.0
 51
0.0
 71
     0
 72
  2000
 73
     1
 74
     3
 75
     0
 76
     0
 77
     0
 78
     0
281
     0
 65
     1
110
0.0
120
0.0
130
0.0
111
1.0
121
0.0
131
0.0
112
0.0
122
1.0
132
0.0
 79
     0
146
0.0
  0
ENDTAB
  0
TABLE
  2
LTYPE
  5
5
330
0
100
AcDbSymbolTable
 70
     6
  0
LTYPE
  5
14
330
5
100
AcDbSymbolTableRecord
100
AcDbLinetypeTableRecord
  2
ByBlock
 70
     0
  3

 72
    65
 73
     0
 40
0.0
  0
LTYPE
  5
15
330
5
100
AcDbSymbolTableRecord
100
AcDbLinetypeTableRecord
  2
ByLayer
 70
     0
  3

 72
    65
 73
     0
 40
0.0
  0
LTYPE
  5
16
330
5
100
AcDbSymbolTableRecord
100
AcDbLinetypeTableRecord
  2
Continuous
 70
     0
  3
Solid line
 72
    65
 73
     0
 40
0.0
  0
LTYPE
  5
6E
330
5
100
AcDbSymbolTableRecord
100
AcDbLinetypeTableRecord
  2
HIDDEN
 70
     0
  3
Hidden __ __ __ __ __ __ __ __ __ __ __ __ __ __
 72
    65
 73
     2
 40
1.905
 49
1.27
 74
     0
 49
-0.635
 74
     0
  0
LTYPE
  5
6F
330
5
100
AcDbSymbolTableRecord
100
AcDbLinetypeTableRecord
  2
PHANTOM
 70
     0
  3
Phantom ______  __  __  ______  __  __  ______
 72
    65
 73
     6
 40
12.7
 49
6.35
 74
     0
 49
-1.27
 74
     0
 49
1.27
 74
     0
 49
-1.27
 74
     0
 49
1.27
 74
     0
 49
-1.27
 74
     0
  0
LTYPE
  5
70
330
5
100
AcDbSymbolTableRecord
100
AcDbLinetypeTableRecord
  2
CENTER
 70
     0
  3
Center ____ _ ____ _ ____ _ ____ _ ____ _ ____
 72
    65
 73
     4
 40
10.16
 49
6.35
 74
     0
 49
-1.27
 74
     0
 49
1.27
 74
     0
 49
-1.27
 74
     0
  0
LTYPE
  5
71
330
5
100
AcDbSymbolTableRecord
100
AcDbLinetypeTableRecord
  2
CENTERX2
 70
     0
  3
Center (2x) ________  __  ________  __  _____
 72
    65
 73
     4
 40
20.32
 49
12.7
 74
     0
 49
-2.54
 74
     0
 49
2.54
 74
     0
 49
-2.54
 74
     0
  0
LTYPE
  5
72
330
5
100
AcDbSymbolTableRecord
100
AcDbLinetypeTableRecord
  2
DOT2
 70
     0
  3
Dot (.5x) ........................................
 72
    65
 73
     2
 40
0.635
 49
0.0
 74
     0
 49
-0.635
 74
     0
  0
ENDTAB
  0
TABLE
  2
LAYER
  5
2
330
0
100
AcDbSymbolTable
 70
    17
  0
LAYER
  5
10
330
2
100
AcDbSymbolTableRecord
100
AcDbLayerTableRecord
  2
0
 70
     0
 62
     7
  6
Continuous
370
    -3
390
F
  0
LAYER
  5
73
330
2
100
AcDbSymbolTableRecord
100
AcDbLayerTableRecord
  2
FORMAT
 70
     0
 62
     7
  6
Continuous
370
    -3
390
F
  0
LAYER
  5
74
330
2
100
AcDbSymbolTableRecord
100
AcDbLayerTableRecord
  2
YARDIMCI_GEOMETRI
 70
     0
 62
    -6
  6
Continuous
290
     0
370
    -3
390
F
  0
LAYER
  5
75
330
2
100
AcDbSymbolTableRecord
100
AcDbLayerTableRecord
  2
SAYFA_CERCEVESI
 70
     0
 62
     7
  6
Continuous
370
    25
390
F
  0
LAYER
  5
76
330
2
100
AcDbSymbolTableRecord
100
AcDbLayerTableRecord
  2
ANTET
 70
     0
 62
     7
  6
Continuous
370
    -3
390
F
  0
LAYER
  5
77
330
2
100
AcDbSymbolTableRecord
100
AcDbLayerTableRecord
  2
OLCU
 70
     0
 62
   150
  6
Continuous
370
    -3
390
F
  0
LAYER
  5
78
330
2
100
AcDbSymbolTableRecord
100
AcDbLayerTableRecord
  2
METIN
 70
     0
 62
    96
  6
Continuous
370
    -3
390
F
  0
LAYER
  5
79
330
2
100
AcDbSymbolTableRecord
100
AcDbLayerTableRecord
  2
BALON
 70
     0
 62
     5
  6
Continuous
370
    -3
390
F
  0
LAYER
  5
7A
330
2
100
AcDbSymbolTableRecord
100
AcDbLayerTableRecord
  2
VURGU
 70
     0
 62
     7
  6
Continuous
370
    -3
390
F
  0
LAYER
  5
7B
330
2
100
AcDbSymbolTableRecord
100
AcDbLayerTableRecord
  2
SILIK
 70
     0
 62
     7
  6
Continuous
370
    -3
390
F
  0
LAYER
  5
7C
330
2
100
AcDbSymbolTableRecord
100
AcDbLayerTableRecord
  2
MODEL
 70
     0
 62
     7
  6
Continuous
370
    -3
390
F
  0
LAYER
  5
7D
330
2
100
AcDbSymbolTableRecord
100
AcDbLayerTableRecord
  2
DETAYLANDıRMA
 70
     0
 62
   190
  6
Continuous
370
    -3
390
F
  0
LAYER
  5
7E
330
2
100
AcDbSymbolTableRecord
100
AcDbLayerTableRecord
  2
TOLERANS
 70
     0
 62
   230
  6
Continuous
370
    -3
390
F
  0
LAYER
  5
7F
330
2
100
AcDbSymbolTableRecord
100
AcDbLayerTableRecord
  2
MERKEZ_CIZGILERI
 70
     0
 62
    30
  6
Continuous
370
    -3
390
F
  0
LAYER
  5
80
330
2
100
AcDbSymbolTableRecord
100
AcDbLayerTableRecord
  2
KESIT-DETAY_CIZGILERI
 70
     0
 62
     7
  6
Continuous
370
    -3
390
F
  0
LAYER
  5
81
330
2
100
AcDbSymbolTableRecord
100
AcDbLayerTableRecord
  2
\U+041E\U+0421\U+0415\U+0412\U+042B\U+0415
 70
     0
 62
     7
  6
Continuous
370
    -3
390
F
  0
LAYER
  5
82
330
2
100
AcDbSymbolTableRecord
100
AcDbLayerTableRecord
  2
\U+0412\U+041E\U+0414\U+042F\U+041D\U+042B\U+0415_\U+0417\U+041D\U+0410\U+041A\U+0418
 70
     0
 62
    11
  6
Continuous
370
    -3
390
F
  0
ENDTAB
  0
TABLE
  2
STYLE
  5
3
330
0
100
AcDbSymbolTable
 70
     1
  0
STYLE
  5
11
330
3
100
AcDbSymbolTableRecord
100
AcDbTextStyleTableRecord
  2
Standard
 70
     0
 40
0.0
 41
1.0
 50
0.0
 71
     0
 42
3.5
  3
txt
  4

  0
ENDTAB
  0
TABLE
  2
VIEW
  5
6
330
0
100
AcDbSymbolTable
 70
     0
  0
ENDTAB
  0
TABLE
  2
UCS
  5
7
330
0
100
AcDbSymbolTable
 70
     0
  0
ENDTAB
  0
TABLE
  2
APPID
  5
9
330
0
100
AcDbSymbolTable
 70
     1
  0
APPID
  5
12
330
9
100
AcDbSymbolTableRecord
100
AcDbRegAppTableRecord
  2
ACAD
 70
     0
  0
ENDTAB
  0
TABLE
  2
DIMSTYLE
  5
A
330
0
100
AcDbSymbolTable
 70
     1
100
AcDbDimStyleTable
  0
DIMSTYLE
105
27
330
A
100
AcDbSymbolTableRecord
100
AcDbDimStyleTableRecord
  2
ISO-25
 70
     0
 41
2.5
 42
0.625
 43
3.75
 44
1.25
 73
     0
 74
     0
 77
     1
 78
     8
140
2.5
141
2.5
143
0.0393700787
147
0.625
171
     3
172
     1
178
     0
271
     2
272
     2
274
     3
278
    44
283
     0
284
     8
340
11
  0
ENDTAB
  0
TABLE
  2
BLOCK_RECORD
  5
1
330
0
100
AcDbSymbolTable
 70
     5
  0
BLOCK_RECORD
  5
1F
330
1
100
AcDbSymbolTableRecord
100
AcDbBlockTableRecord
  2
*Model_Space
340
22
  0
BLOCK_RECORD
  5
1B
330
1
100
AcDbSymbolTableRecord
100
AcDbBlockTableRecord
  2
*Paper_Space
340
1E
  0
BLOCK_RECORD
  5
23
330
1
100
AcDbSymbolTableRecord
100
AcDbBlockTableRecord
  2
*Paper_Space0
340
26
  0
BLOCK_RECORD
  5
97
330
1
100
AcDbSymbolTableRecord
100
AcDbBlockTableRecord
  2
SW_CENTERMARKSYMBOL_0
340
0
102
{BLKREFS
331
A2
102
}
  0
BLOCK_RECORD
  5
AC
330
1
100
AcDbSymbolTableRecord
100
AcDbBlockTableRecord
  2
SW_CENTERMARKSYMBOL_1
340
0
102
{BLKREFS
331
B7
102
}
  0
BLOCK_RECORD
  5
BF
330
1
100
AcDbSymbolTableRecord
100
AcDbBlockTableRecord
  2
SW_CENTERMARKSYMBOL_2
340
0
102
{BLKREFS
331
CA
102
}
  0
BLOCK_RECORD
  5
D2
330
1
100
AcDbSymbolTableRecord
100
AcDbBlockTableRecord
  2
SW_CENTERMARKSYMBOL_3
340
0
102
{BLKREFS
331
DD
102
}
  0
ENDTAB
  0
ENDSEC
  0
SECTION
  2
BLOCKS
  0
BLOCK
  5
20
330
1F
100
AcDbEntity
  8
0
100
AcDbBlockBegin
  2
*Model_Space
 70
     0
 10
0.0
 20
0.0
 30
0.0
  3
*Model_Space
  1

  0
ENDBLK
  5
21
330
1F
100
AcDbEntity
  8
0
100
AcDbBlockEnd
  0
BLOCK
  5
1C
330
1B
100
AcDbEntity
 67
     1
  8
0
100
AcDbBlockBegin
  2
*Paper_Space
 70
     0
 10
0.0
 20
0.0
 30
0.0
  3
*Paper_Space
  1

  0
ENDBLK
  5
1D
330
1B
100
AcDbEntity
 67
     1
  8
0
100
AcDbBlockEnd
  0
BLOCK
  5
24
330
23
100
AcDbEntity
  8
0
100
AcDbBlockBegin
  2
*Paper_Space0
 70
     0
 10
0.0
 20
0.0
 30
0.0
  3
*Paper_Space0
  1

  0
ENDBLK
  5
25
330
23
100
AcDbEntity
  8
0
100
AcDbBlockEnd
  0
BLOCK
  5
98
330
97
100
AcDbEntity
  8
0
100
AcDbBlockBegin
  2
SW_CENTERMARKSYMBOL_0
 70
     0
 10
0.0
 20
0.0
 30
0.0
  3
SW_CENTERMARKSYMBOL_0
  1

  0
LINE
  5
9A
330
97
100
AcDbEntity
  8
FORMAT
 62
     0
100
AcDbLine
 10
0.0
 20
0.0
 30
0.0
 11
0.0
 21
2.5
 31
0.0
  0
LINE
  5
9B
330
97
100
AcDbEntity
  8
FORMAT
 62
     0
100
AcDbLine
 10
0.0
 20
0.0
 30
0.0
 11
-2.5
 21
0.0
 31
0.0
  0
LINE
  5
9C
330
97
100
AcDbEntity
  8
FORMAT
 62
     0
100
AcDbLine
 10
0.0
 20
0.0
 30
0.0
 11
0.0
 21
-2.5
 31
0.0
  0
LINE
  5
9D
330
97
100
AcDbEntity
  8
FORMAT
 62
     0
100
AcDbLine
 10
0.0
 20
0.0
 30
0.0
 11
2.5
 21
0.0
 31
0.0
  0
LINE
  5
9E
330
97
100
AcDbEntity
  8
FORMAT
 62
     0
100
AcDbLine
 10
0.0
 20
5.0
 30
0.0
 11
0.0
 21
82.5
 31
0.0
  0
LINE
  5
9F
330
97
100
AcDbEntity
  8
FORMAT
 62
     0
100
AcDbLine
 10
-5.0
 20
0.0
 30
0.0
 11
-82.5
 21
0.0
 31
0.0
  0
LINE
  5
A0
330
97
100
AcDbEntity
  8
FORMAT
 62
     0
100
AcDbLine
 10
0.0
 20
-5.0
 30
0.0
 11
0.0
 21
-82.5
 31
0.0
  0
LINE
  5
A1
330
97
100
AcDbEntity
  8
FORMAT
 62
     0
100
AcDbLine
 10
5.0
 20
0.0
 30
0.0
 11
82.5
 21
0.0
 31
0.0
  0
ENDBLK
  5
99
330
97
100
AcDbEntity
  8
0
100
AcDbBlockEnd
  0
BLOCK
  5
AD
330
AC
100
AcDbEntity
  8
0
100
AcDbBlockBegin
  2
SW_CENTERMARKSYMBOL_1
 70
     0
 10
0.0
 20
0.0
 30
0.0
  3
SW_CENTERMARKSYMBOL_1
  1

  0
LINE
  5
AF
330
AC
100
AcDbEntity
  8
FORMAT
 62
     0
100
AcDbLine
 10
0.0
 20
0.0
 30
0.0
 11
0.0
 21
2.5
 31
0.0
  0
LINE
  5
B0
330
AC
100
AcDbEntity
  8
FORMAT
 62
     0
100
AcDbLine
 10
0.0
 20
0.0
 30
0.0
 11
-2.5
 21
0.0
 31
0.0
  0
LINE
  5
B1
330
AC
100
AcDbEntity
  8
FORMAT
 62
     0
100
AcDbLine
 10
0.0
 20
0.0
 30
0.0
 11
0.0
 21
-2.5
 31
0.0
  0
LINE
  5
B2
330
AC
100
AcDbEntity
  8
FORMAT
 62
     0
100
AcDbLine
 10
0.0
 20
0.0
 30
0.0
 11
2.5
 21
0.0
 31
0.0
  0
LINE
  5
B3
330
AC
100
AcDbEntity
  8
FORMAT
 62
     0
100
AcDbLine
 10
0.0
 20
5.0
 30
0.0
 11
0.0
 21
82.5
 31
0.0
  0
LINE
  5
B4
330
AC
100
AcDbEntity
  8
FORMAT
 62
     0
100
AcDbLine
 10
-5.0
 20
0.0
 30
0.0
 11
-82.5
 21
0.0
 31
0.0
  0
LINE
  5
B5
330
AC
100
AcDbEntity
  8
FORMAT
 62
     0
100
AcDbLine
 10
0.0
 20
-5.0
 30
0.0
 11
0.0
 21
-82.5
 31
0.0
  0
LINE
  5
B6
330
AC
100
AcDbEntity
  8
FORMAT
 62
     0
100
AcDbLine
 10
5.0
 20
0.0
 30
0.0
 11
82.5
 21
0.0
 31
0.0
  0
ENDBLK
  5
AE
330
AC
100
AcDbEntity
  8
0
100
AcDbBlockEnd
  0
BLOCK
  5
C0
330
BF
100
AcDbEntity
  8
0
100
AcDbBlockBegin
  2
SW_CENTERMARKSYMBOL_2
 70
     0
 10
0.0
 20
0.0
 30
0.0
  3
SW_CENTERMARKSYMBOL_2
  1

  0
LINE
  5
C2
330
BF
100
AcDbEntity
  8
FORMAT
 62
     0
100
AcDbLine
 10
0.0
 20
0.0
 30
0.0
 11
0.0
 21
2.5
 31
0.0
  0
LINE
  5
C3
330
BF
100
AcDbEntity
  8
FORMAT
 62
     0
100
AcDbLine
 10
0.0
 20
0.0
 30
0.0
 11
-2.5
 21
0.0
 31
0.0
  0
LINE
  5
C4
330
BF
100
AcDbEntity
  8
FORMAT
 62
     0
100
AcDbLine
 10
0.0
 20
0.0
 30
0.0
 11
0.0
 21
-2.5
 31
0.0
  0
LINE
  5
C5
330
BF
100
AcDbEntity
  8
FORMAT
 62
     0
100
AcDbLine
 10
0.0
 20
0.0
 30
0.0
 11
2.5
 21
0.0
 31
0.0
  0
LINE
  5
C6
330
BF
100
AcDbEntity
  8
FORMAT
 62
     0
100
AcDbLine
 10
0.0
 20
5.0
 30
0.0
 11
0.0
 21
82.5
 31
0.0
  0
LINE
  5
C7
330
BF
100
AcDbEntity
  8
FORMAT
 62
     0
100
AcDbLine
 10
-5.0
 20
0.0
 30
0.0
 11
-82.5
 21
0.0
 31
0.0
  0
LINE
  5
C8
330
BF
100
AcDbEntity
  8
FORMAT
 62
     0
100
AcDbLine
 10
0.0
 20
-5.0
 30
0.0
 11
0.0
 21
-82.5
 31
0.0
  0
LINE
  5
C9
330
BF
100
AcDbEntity
  8
FORMAT
 62
     0
100
AcDbLine
 10
5.0
 20
0.0
 30
0.0
 11
82.5
 21
0.0
 31
0.0
  0
ENDBLK
  5
C1
330
BF
100
AcDbEntity
  8
0
100
AcDbBlockEnd
  0
BLOCK
  5
D3
330
D2
100
AcDbEntity
  8
0
100
AcDbBlockBegin
  2
SW_CENTERMARKSYMBOL_3
 70
     0
 10
0.0
 20
0.0
 30
0.0
  3
SW_CENTERMARKSYMBOL_3
  1

  0
LINE
  5
D5
330
D2
100
AcDbEntity
  8
FORMAT
 62
     0
100
AcDbLine
 10
0.0
 20
0.0
 30
0.0
 11
0.0
 21
2.5
 31
0.0
  0
LINE
  5
D6
330
D2
100
AcDbEntity
  8
FORMAT
 62
     0
100
AcDbLine
 10
0.0
 20
0.0
 30
0.0
 11
-2.5
 21
0.0
 31
0.0
  0
LINE
  5
D7
330
D2
100
AcDbEntity
  8
FORMAT
 62
     0
100
AcDbLine
 10
0.0
 20
0.0
 30
0.0
 11
0.0
 21
-2.5
 31
0.0
  0
LINE
  5
D8
330
D2
100
AcDbEntity
  8
FORMAT
 62
     0
100
AcDbLine
 10
0.0
 20
0.0
 30
0.0
 11
2.5
 21
0.0
 31
0.0
  0
LINE
  5
D9
330
D2
100
AcDbEntity
  8
FORMAT
 62
     0
100
AcDbLine
 10
0.0
 20
5.0
 30
0.0
 11
0.0
 21
82.5
 31
0.0
  0
LINE
  5
DA
330
D2
100
AcDbEntity
  8
FORMAT
 62
     0
100
AcDbLine
 10
-5.0
 20
0.0
 30
0.0
 11
-82.5
 21
0.0
 31
0.0
  0
LINE
  5
DB
330
D2
100
AcDbEntity
  8
FORMAT
 62
     0
100
AcDbLine
 10
0.0
 20
-5.0
 30
0.0
 11
0.0
 21
-82.5
 31
0.0
  0
LINE
  5
DC
330
D2
100
AcDbEntity
  8
FORMAT
 62
     0
100
AcDbLine
 10
5.0
 20
0.0
 30
0.0
 11
82.5
 21
0.0
 31
0.0
  0
ENDBLK
  5
D4
330
D2
100
AcDbEntity
  8
0
100
AcDbBlockEnd
  0
ENDSEC
  0
SECTION
  2
ENTITIES
  0
LINE
  5
83
330
1F
100
AcDbEntity
  8
0
  6
Continuous
 62
     7
370
    25
100
AcDbLine
 10
1.8380521532
 20
93.0455607831
 30
0.0
 11
1.8380521532
 21
-31.9544392169
 31
0.0
  0
LINE
  5
84
330
1F
100
AcDbEntity
  8
0
  6
Continuous
 62
     7
370
    25
100
AcDbLine
 10
161.8380521532
 20
-31.9544392169
 30
0.0
 11
161.8380521532
 21
93.0455607831
 31
0.0
  0
ARC
  5
85
330
1F
100
AcDbEntity
  8
0
  6
Continuous
 62
     7
370
    25
100
AcDbCircle
 10
161.8380521532
 20
93.0455607831
 30
0.0
 40
160.0000000000001
100
AcDbArc
 50
90.0
 51
180.0
  0
LINE
  5
86
330
1F
100
AcDbEntity
  8
0
  6
Continuous
 62
     7
370
    25
100
AcDbLine
 10
286.8380521532
 20
253.0455607831
 30
0.0
 11
161.8380521532
 21
253.0455607831
 31
0.0
  0
LINE
  5
87
330
1F
100
AcDbEntity
  8
0
  6
Continuous
 62
     7
370
    25
100
AcDbLine
 10
161.8380521532
 20
93.0455607831
 30
0.0
 11
286.8380521532
 21
93.0455607831
 31
0.0
  0
LINE
  5
88
330
1F
100
AcDbEntity
  8
0
  6
Continuous
 62
     7
370
    25
100
AcDbLine
 10
81.8380521532
 20
-31.9544392169
 30
0.0
 11
161.8380521532
 21
-31.9544392169
 31
0.0
  0
LINE
  5
89
330
1F
100
AcDbEntity
  8
0
  6
Continuous
 62
     7
370
    25
100
AcDbLine
 10
1.8380521532
 20
-31.9544392169
 30
0.0
 11
81.8380521532
 21
-31.9544392169
 31
0.0
  0
LINE
  5
8A
330
1F
100
AcDbEntity
  8
0
  6
Continuous
 62
     7
370
    25
100
AcDbLine
 10
286.8380521532
 20
173.0455607831
 30
0.0
 11
286.8380521532
 21
93.0455607831
 31
0.0
  0
LINE
  5
8B
330
1F
100
AcDbEntity
  8
0
  6
Continuous
 62
     7
370
    25
100
AcDbLine
 10
286.8380521532
 20
253.0455607831
 30
0.0
 11
286.8380521532
 21
173.0455607831
 31
0.0
  0
LINE
  5
8C
330
1F
100
AcDbEntity
  8
0
  6
Continuous
 62
     1
370
    25
100
AcDbLine
 10
1.8380521532
 20
93.0455607831
 30
0.0
 11
161.8380521532
 21
93.0455607831
 31
0.0
  0
LINE
  5
8D
330
1F
100
AcDbEntity
  8
0
  6
Continuous
 62
     1
370
    25
100
AcDbLine
 10
161.8380521532
 20
253.0455607831
 30
0.0
 11
161.8380521532
 21
93.0455607831
 31
0.0
  0
LINE
  5
8E
330
1F
100
AcDbEntity
  8
0
  6
Continuous
 62
     7
370
    25
100
AcDbLine
 10
-264.9559782802
 20
173.0455607831
 30
0.0
 11
-264.9559782802
 21
93.0455607831
 31
0.0
  0
LINE
  5
8F
330
1F
100
AcDbEntity
  8
0
  6
Continuous
 62
     7
370
    25
100
AcDbLine
 10
-104.9559782802
 20
93.0455607831
 30
0.0
 11
-104.9559782802
 21
173.0455607831
 31
0.0
  0
LINE
  5
90
330
1F
100
AcDbEntity
  8
0
  6
Continuous
 62
     7
370
    25
100
AcDbLine
 10
-264.9559782802
 20
93.0455607831
 30
0.0
 11
-264.9559782802
 21
-31.9544392169
 31
0.0
  0
LINE
  5
91
330
1F
100
AcDbEntity
  8
0
  6
Continuous
 62
     7
370
    25
100
AcDbLine
 10
-104.9559782802
 20
-31.9544392169
 30
0.0
 11
-104.9559782802
 21
93.0455607831
 31
0.0
  0
CIRCLE
  5
92
330
1F
100
AcDbEntity
  8
0
  6
Continuous
 62
     7
370
    25
100
AcDbCircle
 10
-184.9559782802
 20
173.0455607831
 30
0.0
 40
80.0
  0
CIRCLE
  5
93
330
1F
100
AcDbEntity
  8
0
  6
Continuous
 62
     7
370
    25
100
AcDbCircle
 10
-184.9559782802
 20
173.0455607831
 30
0.0
 40
70.5
  0
LINE
  5
94
330
1F
100
AcDbEntity
  8
0
  6
Continuous
 62
     7
370
    25
100
AcDbLine
 10
-264.9559782802
 20
-31.9544392169
 30
0.0
 11
-104.9559782802
 21
-31.9544392169
 31
0.0
  0
LINE
  5
95
330
1F
100
AcDbEntity
  8
0
  6
Continuous
 62
     1
370
    25
100
AcDbLine
 10
-184.9559782802
 20
93.0455607831
 30
0.0
 11
-104.9559782802
 21
93.0455607831
 31
0.0
  0
LINE
  5
96
330
1F
100
AcDbEntity
  8
0
  6
Continuous
 62
     1
370
    25
100
AcDbLine
 10
-264.9559782802
 20
93.0455607831
 30
0.0
 11
-184.9559782802
 21
93.0455607831
 31
0.0
  0
INSERT
  5
A2
330
1F
100
AcDbEntity
  8
FORMAT
 62
     7
100
AcDbBlockReference
  2
SW_CENTERMARKSYMBOL_0
 10
-184.9559782802
 20
173.0455607831
 30
0.0
  0
LINE
  5
A3
330
1F
100
AcDbEntity
  8
0
  6
Continuous
 62
     7
370
    25
100
AcDbLine
 10
286.8380521532
 20
496.174500493
 30
0.0
 11
161.8380521532
 21
496.174500493
 31
0.0
  0
LINE
  5
A4
330
1F
100
AcDbEntity
  8
0
  6
Continuous
 62
     7
370
    25
100
AcDbLine
 10
161.8380521532
 20
336.174500493
 30
0.0
 11
286.8380521532
 21
336.174500493
 31
0.0
  0
LINE
  5
A5
330
1F
100
AcDbEntity
  8
0
  6
Continuous
 62
     7
370
    25
100
AcDbLine
 10
161.8380521532
 20
496.174500493
 30
0.0
 11
81.8380521532
 21
496.174500493
 31
0.0
  0
LINE
  5
A6
330
1F
100
AcDbEntity
  8
0
  6
Continuous
 62
     7
370
    25
100
AcDbLine
 10
81.8380521532
 20
336.174500493
 30
0.0
 11
161.8380521532
 21
336.174500493
 31
0.0
  0
CIRCLE
  5
A7
330
1F
100
AcDbEntity
  8
0
  6
Continuous
 62
     7
370
    25
100
AcDbCircle
 10
81.8380521532
 20
416.174500493
 30
0.0
 40
70.50000000000006
  0
CIRCLE
  5
A8
330
1F
100
AcDbEntity
  8
0
  6
Continuous
 62
     7
370
    25
100
AcDbCircle
 10
81.8380521532
 20
416.174500493
 30
0.0
 40
80.00000000000006
  0
LINE
  5
A9
330
1F
100
AcDbEntity
  8
0
  6
Continuous
 62
     7
370
    25
100
AcDbLine
 10
286.8380521532
 20
496.174500493
 30
0.0
 11
286.8380521532
 21
336.174500493
 31
0.0
  0
LINE
  5
AA
330
1F
100
AcDbEntity
  8
0
  6
Continuous
 62
     1
370
    25
100
AcDbLine
 10
161.8380521532
 20
416.174500493
 30
0.0
 11
161.8380521532
 21
336.174500493
 31
0.0
  0
LINE
  5
AB
330
1F
100
AcDbEntity
  8
0
  6
Continuous
 62
     1
370
    25
100
AcDbLine
 10
161.8380521532
 20
496.174500493
 30
0.0
 11
161.8380521532
 21
416.174500493
 31
0.0
  0
INSERT
  5
B7
330
1F
100
AcDbEntity
  8
FORMAT
 62
     7
100
AcDbBlockReference
  2
SW_CENTERMARKSYMBOL_1
 10
81.8380521532
 20
416.174500493
 30
0.0
  0
LINE
  5
B8
330
1F
100
AcDbEntity
  8
0
  6
Continuous
 62
     7
370
    25
100
AcDbLine
 10
387.1767862121
 20
93.0455607831
 30
0.0
 11
387.1767862121
 21
-31.9544392169
 31
0.0
  0
LINE
  5
B9
330
1F
100
AcDbEntity
  8
0
  6
Continuous
 62
     7
370
    25
100
AcDbLine
 10
547.1767862121
 20
-31.9544392169
 30
0.0
 11
547.1767862121
 21
93.0455607831
 31
0.0
  0
LINE
  5
BA
330
1F
100
AcDbEntity
  8
0
  6
Continuous
 62
     7
370
    25
100
AcDbLine
 10
547.1767862121
 20
93.0455607831
 30
0.0
 11
547.1767862121
 21
173.0455607831
 31
0.0
  0
LINE
  5
BB
330
1F
100
AcDbEntity
  8
0
  6
Continuous
 62
     7
370
    25
100
AcDbLine
 10
387.1767862121
 20
173.0455607831
 30
0.0
 11
387.1767862121
 21
93.0455607831
 31
0.0
  0
LINE
  5
BC
330
1F
100
AcDbEntity
  8
0
  6
Continuous
 62
     7
370
    25
100
AcDbLine
 10
387.1767862121
 20
-31.9544392169
 30
0.0
 11
547.1767862121
 21
-31.9544392169
 31
0.0
  0
ARC
  5
BD
330
1F
100
AcDbEntity
  8
0
  6
Continuous
 62
     7
370
    25
100
AcDbCircle
 10
467.1767862121
 20
173.0455607831
 30
0.0
 40
80.00000000000006
100
AcDbArc
 50
0.0
 51
180.0
  0
LINE
  5
BE
330
1F
100
AcDbEntity
  8
0
  6
Continuous
 62
     1
370
    25
100
AcDbLine
 10
387.1767862121
 20
93.0455607831
 30
0.0
 11
547.1767862121
 21
93.0455607831
 31
0.0
  0
INSERT
  5
CA
330
1F
100
AcDbEntity
  8
FORMAT
 62
     7
100
AcDbBlockReference
  2
SW_CENTERMARKSYMBOL_2
 10
467.1767862121
 20
173.0455607831
 30
0.0
  0
LINE
  5
CB
330
1F
100
AcDbEntity
  8
0
  6
Continuous
 62
     7
370
    25
100
AcDbLine
 10
81.8380521532
 20
-312.6525769184
 30
0.0
 11
161.8380521532
 21
-312.6525769184
 31
0.0
  0
LINE
  5
CC
330
1F
100
AcDbEntity
  8
0
  6
Continuous
 62
     7
370
    25
100
AcDbLine
 10
161.8380521532
 20
-152.6525769184
 30
0.0
 11
81.8380521532
 21
-152.6525769184
 31
0.0
  0
LINE
  5
CD
330
1F
100
AcDbEntity
  8
0
  6
Continuous
 62
     7
370
    25
100
AcDbLine
 10
286.8380521532
 20
-152.6525769184
 30
0.0
 11
161.8380521532
 21
-152.6525769184
 31
0.0
  0
LINE
  5
CE
330
1F
100
AcDbEntity
  8
0
  6
Continuous
 62
     7
370
    25
100
AcDbLine
 10
161.8380521532
 20
-312.6525769184
 30
0.0
 11
286.8380521532
 21
-312.6525769184
 31
0.0
  0
ARC
  5
CF
330
1F
100
AcDbEntity
  8
0
  6
Continuous
 62
     7
370
    25
100
AcDbCircle
 10
81.8380521532
 20
-232.6525769184
 30
0.0
 40
79.99999999999997
100
AcDbArc
 50
90.0
 51
270.0
  0
LINE
  5
D0
330
1F
100
AcDbEntity
  8
0
  6
Continuous
 62
     7
370
    25
100
AcDbLine
 10
286.8380521532
 20
-152.6525769184
 30
0.0
 11
286.8380521532
 21
-312.6525769184
 31
0.0
  0
LINE
  5
D1
330
1F
100
AcDbEntity
  8
0
  6
Continuous
 62
     1
370
    25
100
AcDbLine
 10
161.8380521532
 20
-152.6525769184
 30
0.0
 11
161.8380521532
 21
-312.6525769184
 31
0.0
  0
INSERT
  5
DD
330
1F
100
AcDbEntity
  8
FORMAT
 62
     7
100
AcDbBlockReference
  2
SW_CENTERMARKSYMBOL_3
 10
81.8380521532
 20
-232.6525769184
 30
0.0
  0
LINE
  5
DE
330
1F
100
AcDbEntity
  8
0
  6
Continuous
 62
     7
370
    25
100
AcDbLine
 10
545.9626363446
 20
-82.7939947625
 30
0.0
 11
457.5742886963
 21
-133.8195017514
 31
0.0
  0
LINE
  5
DF
330
1F
100
AcDbEntity
  8
0
  6
Continuous
 62
     7
370
    25
100
AcDbLine
 10
537.5677873072
 20
-272.3873197323
 30
0.0
 11
625.9561349555
 21
-221.3618127434
 31
0.0
  0
LINE
  5
E0
330
1F
100
AcDbEntity
  8
0
  6
Continuous
 62
     7
370
    25
100
AcDbLine
 10
361.0024955068
 20
-301.0830001656
 30
0.0
 11
361.0024955068
 21
-403.1506016514
 31
0.0
  0
LINE
  5
E1
330
1F
100
AcDbEntity
  8
0
  6
Continuous
 62
     7
370
    25
100
AcDbLine
 10
521.0024955068
 20
-403.1506016514
 30
0.0
 11
521.0024955068
 21
-301.0830001656
 31
0.0
  0
SPLINE
  5
E2
330
1F
100
AcDbEntity
  8
0
  6
Continuous
 62
     7
370
    25
100
AcDbSpline
210
0.0
220
0.0
230
1.0
 70
     8
 71
     3
 72
    39
 73
    35
 74
     0
 42
0.00000001
 43
0.00000001
 40
0.0
 40
0.0
 40
0.0
 40
0.0
 40
0.0208944138881321
 40
0.0530130729242977
 40
0.0852108496652204
 40
0.117563618765279
 40
0.1500133579001185
 40
0.1825002336821132
 40
0.2149750745071702
 40
0.2474069529215475
 40
0.2797753515738433
 40
0.3120695248401936
 40
0.3442872618666597
 40
0.3764334276257137
 40
0.408518512996686
 40
0.440557323104422
 40
0.4725678533597606
 40
0.5045703495647677
 40
0.5365865173153264
 40
0.5686340305695685
 40
0.6007328926031696
 40
0.6329054435588659
 40
0.6651729459929041
 40
0.6975547221171466
 40
0.7300670976856958
 40
0.7627221023587768
 40
0.795525905364727
 40
0.8284770200850445
 40
0.8615644016512511
 40
0.8947656891407451
 40
0.9280459892488827
 40
0.9613415968288921
 40
0.9921343178919055
 40
1.0
 40
1.0
 40
1.0
 40
1.0
 10
457.5742886962669
 20
-133.81950175142
 30
0.0
 10
456.403671470433
 20
-134.5074955827222
 30
0.0
 10
453.433594554573
 20
-136.2530658267865
 30
0.0
 10
448.755334004809
 20
-139.2582351715097
 30
0.0
 10
443.5540198543725
 20
-142.8709021530466
 30
0.0
 10
438.4523123595187
 20
-146.7097874916205
 30
0.0
 10
433.4546432026599
 20
-150.7630381410113
 30
0.0
 10
428.5742425704867
 20
-155.018419178445
 30
0.0
 10
423.8218063896367
 20
-159.461985995669
 30
0.0
 10
419.2059902986152
 20
-164.0809502765548
 30
0.0
 10
414.7334433339572
 20
-168.8634961227949
 30
0.0
 10
410.4095102655828
 20
-173.7987604358397
 30
0.0
 10
406.2385042894607
 20
-178.8768636988187
 30
0.0
 10
402.2240100890319
 20
-184.0888976197596
 30
0.0
 10
398.3691557394762
 20
-189.4268457130807
 30
0.0
 10
394.676845977708
 20
-194.8834806961527
 30
0.0
 10
391.1499522143675
 20
-200.4522526573153
 30
0.0
 10
387.7914643527644
 20
-206.1271787461193
 30
0.0
 10
384.6047711102254
 20
-211.902448435126
 30
0.0
 10
381.5936405093153
 20
-217.772429483142
 30
0.0
 10
378.7621869688385
 20
-223.7317333710702
 30
0.0
 10
376.1148188287278
 20
-229.7754244169697
 30
0.0
 10
373.656402270119
 20
-235.8987755011303
 30
0.0
 10
371.3924064977539
 20
-242.0969360894107
 30
0.0
 10
369.3289515707513
 20
-248.3647213086412
 30
0.0
 10
367.4728363555108
 20
-254.6963486052405
 30
0.0
 10
365.8315227420855
 20
-261.0851192102481
 30
0.0
 10
364.4130912114808
 20
-267.5230480308696
 30
0.0
 10
363.226012772635
 20
-274.0004815372078
 30
0.0
 10
362.279209442389
 20
-280.5057001784527
 30
0.0
 10
361.5806514417754
 20
-287.0237283431849
 30
0.0
 10
361.1517478672838
 20
-293.3764086844338
 30
0.0
 10
361.0118604107417
 20
-298.0610087249448
 30
0.0
 10
361.0040788019123
 20
-300.5720814906542
 30
0.0
 10
361.0024955067857
 20
-301.0830001656429
 30
0.0
  0
SPLINE
  5
E3
330
1F
100
AcDbEntity
  8
0
  6
Continuous
 62
     7
370
    25
100
AcDbSpline
210
0.0
220
0.0
230
1.0
 70
     8
 71
     3
 72
    33
 73
    29
 74
     0
 42
0.00000001
 43
0.00000001
 40
0.0
 40
0.0
 40
0.0
 40
0.0
 40
0.0333198210334254
 40
0.0736478713458601
 40
0.112831056409286
 40
0.1512100692361646
 40
0.1890869159080764
 40
0.226719006281738
 40
0.2643146451287867
 40
0.3020303198926616
 40
0.3399348008992737
 40
0.3780957477613243
 40
0.4165372563961569
 40
0.4552439622265525
 40
0.4941698351821562
 40
0.5332485454476584
 40
0.5723955089721484
 40
0.6115227736040038
 40
0.6505793269201912
 40
0.6895459525005659
 40
0.7284458831653988
 40
0.7673535885413791
 40
0.8064009465736303
 40
0.8457252321923886
 40
0.8855497279024024
 40
0.9261584060989372
 40
0.9678843855969708
 40
1.0
 40
1.0
 40
1.0
 40
1.0
 10
521.0026481544339
 20
-301.1407034791491
 30
0.0
 10
521.0027172999095
 20
-301.1340584017501
 30
0.0
 10
521.0028701343762
 20
-301.1193705735988
 30
0.0
 10
521.027649335459
 20
-300.8012681720583
 30
0.0
 10
521.0971841820154
 20
-300.249931399211
 30
0.0
 10
521.2276192142058
 20
-299.468980636462
 30
0.0
 10
521.4331702890587
 20
-298.4817521925713
 30
0.0
 10
521.7264021162342
 20
-297.3022243039745
 30
0.0
 10
522.1174322285607
 20
-295.9494772557433
 30
0.0
 10
522.6135586999874
 20
-294.4450259818541
 30
0.0
 10
523.2188464045945
 20
-292.8135892670507
 30
0.0
 10
523.9337740818193
 20
-291.0826247926664
 30
0.0
 10
524.7552379704076
 20
-289.2814444348109
 30
0.0
 10
525.6760786003249
 20
-287.4413768817728
 30
0.0
 10
526.6849593979572
 20
-285.5950728297033
 30
0.0
 10
527.7663724618889
 20
-283.7756961141694
 30
0.0
 10
528.9008563193489
 20
-282.0159094401118
 30
0.0
 10
530.0657173630427
 20
-280.3463395541779
 30
0.0
 10
531.2359307791066
 20
-278.794275997015
 30
0.0
 10
532.3850897051439
 20
-277.3826966293463
 30
0.0
 10
533.4860837733788
 20
-276.1298921170162
 30
0.0
 10
534.5117752937653
 20
-275.0491799726639
 30
0.0
 10
535.4354026957739
 20
-274.1491334952171
 30
0.0
 10
536.2304676767733
 20
-273.4337915153121
 30
0.0
 10
536.8748735468874
 20
-272.9004971891207
 30
0.0
 10
537.337156494604
 20
-272.5491622110056
 30
0.0
 10
537.6039907072173
 20
-272.3666439824433
 30
0.0
 10
537.6109581529184
 20
-272.3627394710479
 30
0.0
 10
537.6139884748237
 20
-272.3610412983001
 30
0.0
  0
LWPOLYLINE
  5
E4
330
1F
100
AcDbEntity
  8
0
  6
Continuous
 62
     7
370
    25
100
AcDbPolyline
 90
      104
 70
   128
 43
0.0
 10
529.3908431551
 20
-119.42157928
 10
529.4960625019
 20
-123.4646868521
 10
529.8113291193
 20
-127.6142374704
 10
530.3354701948
 20
-131.8547945341
 10
531.0665358891
 20
-136.1705828923
 10
532.00180659
 20
-140.5455475289
 10
533.1378030289
 20
-144.9634132881
 10
534.4702992245
 20
-149.4077454191
 10
535.9943382035
 20
-153.8620107145
 10
537.7042504406
 20
-158.3096390148
 10
539.5936749501
 20
-162.7340848506
 10
541.6555829488
 20
-167.1188889929
 10
543.8823040033
 20
-171.4477396821
 10
546.2655545652
 20
-175.7045333095
 10
548.7964687859
 20
-179.8734343232
 10
551.4656314982
 20
-183.9389341375
 10
554.2631132414
 20
-187.8859088261
 10
557.1785071999
 20
-191.699675384
 10
560.2009679165
 20
-195.366046349
 10
563.3192516389
 20
-198.8713825804
 10
566.5217581468
 20
-202.2026439972
 10
569.7965739057
 20
-205.3474380881
 10
573.1315163859
 20
-208.2940660124
 10
576.5141793823
 20
-211.0315661209
 10
579.9319791663
 20
-213.5497547333
 10
583.3722012984
 20
-215.8392640226
 10
586.8220479261
 20
-217.8915768638
 10
590.2686853936
 20
-219.6990585183
 10
593.6992919829
 20
-221.2549850358
 10
597.1011056124
 20
-222.5535682673
 10
600.4614713118
 20
-223.589977398
 10
603.7678883
 20
-224.3603569178
 10
607.0080564887
 20
-224.8618409643
 10
610.1699222394
 20
-225.0925639839
 10
613.2417232039
 20
-225.0516676718
 10
616.2120320807
 20
-224.739304165
 10
619.0697991258
 20
-224.1566354763
 10
621.8043932581
 20
-223.3058291714
 10
624.4056416077
 20
-222.1900503057
 10
626.8638673601
 20
-220.8134496498
 10
629.1699257539
 20
-219.1811482486
 10
631.3152381004
 20
-217.2992183706
 10
633.2918236968
 20
-215.1746609184
 10
635.0923295149
 20
-212.8153793853
 10
636.7100575547
 20
-210.2301504537
 10
638.1389897617
 20
-207.4285913449
 10
639.3738104143
 20
-204.4211240427
 10
640.4099258985
 20
-201.2189365232
 10
641.2434817966
 20
-197.8339411342
 10
641.871377226
 20
-194.2787302809
 10
642.2912763744
 20
-190.5665295811
 10
642.5016171894
 20
-186.7111486653
 10
642.5016171894
 20
-182.7269298038
 10
642.2912763744
 20
-178.6286945522
 10
641.871377226
 20
-174.4316886151
 10
641.2434817966
 20
-170.15152513
 10
640.4099258985
 20
-165.8041265864
 10
639.3738104143
 20
-161.4056655922
 10
638.1389897617
 20
-156.9725047114
 10
636.7100575547
 20
-152.5211355935
 10
635.0923295149
 20
-148.0681176241
 10
633.2918236968
 20
-143.6300163224
 10
631.3152381004
 20
-139.2233417169
 10
629.1699257539
 20
-134.8644869264
 10
626.8638673601
 20
-130.569667177
 10
624.4056416077
 20
-126.3548594804
 10
621.8043932581
 20
-122.235743198
 10
619.0697991258
 20
-118.2276417129
 10
616.2120320807
 20
-114.3454654259
 10
613.2417232039
 20
-110.6036562877
 10
610.1699222394
 20
-107.0161340741
 10
607.0080564887
 20
-103.5962446035
 10
603.7678883
 20
-100.3567100891
 10
600.4614713118
 20
-97.3095818122
 10
597.1011056124
 20
-94.4661952901
 10
593.6992919829
 20
-91.8371281075
 10
590.2686853936
 20
-89.4321605669
 10
586.8220479261
 20
-87.2602393055
 10
583.3722012984
 20
-85.3294440131
 10
579.9319791663
 20
-83.646957375
 10
576.5141793823
 20
-82.219038352
 10
573.1315163859
 20
-81.0509988966
 10
569.7965739057
 20
-80.1471841924
 10
566.5217581468
 20
-79.5109564893
 10
563.3192516389
 20
-79.1446825963
 10
560.2009679165
 20
-79.0497250762
 10
557.1785071999
 20
-79.2264371773
 10
554.2631132414
 20
-79.674161519
 10
551.4656314982
 20
-80.3912325373
 10
548.7964687859
 20
-81.3749826809
 10
546.2655545652
 20
-82.6217523347
 10
543.8823040033
 20
-84.1269034337
 10
541.6555829488
 20
-85.8848367168
 10
539.5936749501
 20
-87.889012557
 10
537.7042504406
 20
-90.1319752883
 10
535.9943382035
 20
-92.6053809421
 10
534.4702992245
 20
-95.3000282869
 10
533.1378030289
 20
-98.2058930577
 10
532.00180659
 20
-101.3121652466
 10
531.0665358891
 20
-104.607289317
 10
530.3354701948
 20
-108.079007191
 10
529.8113291193
 20
-111.7144038501
 10
529.4960625019
 20
-115.4999553799
 10
529.3908431551
 20
-119.42157928
  0
LWPOLYLINE
  5
E5
330
1F
100
AcDbEntity
  8
0
  6
Continuous
 62
     7
370
    25
100
AcDbPolyline
 90
       97
 70
   128
 43
0.0
 10
536.1083575764
 20
-123.2995178112
 10
536.2150924541
 20
-119.5961296856
 10
536.5348400322
 20
-116.0318335032
 10
537.0662311024
 20
-112.6218921275
 10
537.8069901666
 20
-109.3809074509
 10
538.7539451808
 20
-106.3227578675
 10
539.9030411381
 20
-103.4605388433
 10
541.2493574334
 20
-100.8065068394
 10
542.7871289335
 20
-98.3720268285
 10
544.5097706647
 20
-96.1675236277
 10
546.4099060108
 20
-94.202437258
 10
548.4793983005
 20
-92.4851825211
 10
550.70938565
 20
-91.0231129653
 10
553.0903189112
 20
-89.822489397
 10
555.6120025624
 20
-88.8884530706
 10
558.2636383669
 20
-88.2250036731
 10
561.0338716132
 20
-87.8349821965
 10
563.9108397373
 20
-87.7200587728
 10
566.8822231199
 20
-87.8807255218
 10
569.9352978412
 20
-88.3162944436
 10
573.0569901666
 20
-89.0249003653
 10
576.2339325303
 20
-90.0035089277
 10
579.4525207773
 20
-91.2479295785
 10
582.6989724187
 20
-92.7528335175
 10
585.95938565
 20
-94.511776515
 10
589.2197988814
 20
-96.5172265071
 10
592.4662505227
 20
-98.7605958489
 10
595.6848387698
 20
-101.2322780886
 10
598.8617811334
 20
-103.9216891034
 10
601.9834734588
 20
-106.8173124224
 10
605.0365481802
 20
-109.906748542
 10
608.0079315628
 20
-113.1767680224
 10
610.8848996869
 20
-116.6133681383
 10
613.6551329332
 20
-120.2018328402
 10
616.3067687377
 20
-123.9267957716
 10
618.8284523888
 20
-127.7723060691
 10
621.20938565
 20
-131.7218966674
 10
623.4393729996
 20
-135.7586548131
 10
625.5088652892
 20
-139.8652944882
 10
627.4090006353
 20
-144.024230431
 10
629.1316423666
 20
-148.2176534395
 10
630.6694138667
 20
-152.4276066324
 10
632.0157301619
 20
-156.6360623439
 10
633.1648261193
 20
-160.8249993205
 10
634.1117811334
 20
-164.976479891
 10
634.8525401976
 20
-169.0727267783
 10
635.3839312679
 20
-173.0961992243
 10
635.7036788459
 20
-177.0296681023
 10
635.8104137237
 20
-180.8562896947
 10
635.7036788459
 20
-184.5596778204
 10
635.3839312679
 20
-188.1239740028
 10
634.8525401976
 20
-191.5339153785
 10
634.1117811334
 20
-194.774900055
 10
633.1648261193
 20
-197.8330496384
 10
632.0157301619
 20
-200.6952686626
 10
630.6694138667
 20
-203.3493006665
 10
629.1316423666
 20
-205.7837806774
 10
627.4090006353
 20
-207.9882838783
 10
625.5088652892
 20
-209.9533702479
 10
623.4393729996
 20
-211.6706249848
 10
621.20938565
 20
-213.1326945406
 10
618.8284523888
 20
-214.3333181089
 10
616.3067687377
 20
-215.2673544353
 10
613.6551329332
 20
-215.9308038328
 10
610.8848996869
 20
-216.3208253094
 10
608.0079315628
 20
-216.4357487331
 10
605.0365481802
 20
-216.2750819841
 10
601.9834734588
 20
-215.8395130623
 10
598.8617811334
 20
-215.1309071406
 10
595.6848387698
 20
-214.1522985782
 10
592.4662505227
 20
-212.9078779274
 10
589.2197988814
 20
-211.4029739884
 10
585.95938565
 20
-209.6440309909
 10
582.6989724187
 20
-207.6385809988
 10
579.4525207773
 20
-205.395211657
 10
576.2339325303
 20
-202.9235294173
 10
573.0569901666
 20
-200.2341184025
 10
569.9352978412
 20
-197.3384950835
 10
566.8822231199
 20
-194.2490589639
 10
563.9108397373
 20
-190.9790394835
 10
561.0338716132
 20
-187.5424393676
 10
558.2636383669
 20
-183.9539746657
 10
555.6120025624
 20
-180.2290117343
 10
553.0903189112
 20
-176.3835014368
 10
550.70938565
 20
-172.4339108385
 10
548.4793983005
 20
-168.3971526928
 10
546.4099060108
 20
-164.2905130177
 10
544.5097706647
 20
-160.1315770749
 10
542.7871289335
 20
-155.9381540665
 10
541.2493574334
 20
-151.7282008735
 10
539.9030411381
 20
-147.519745162
 10
538.7539451808
 20
-143.3308081854
 10
537.8069901666
 20
-139.1793276149
 10
537.0662311024
 20
-135.0830807276
 10
536.5348400322
 20
-131.0596082816
 10
536.2150924541
 20
-127.1261394036
 10
536.1083575764
 20
-123.2995178112
  0
LWPOLYLINE
  5
E6
330
1F
100
AcDbEntity
  8
0
  6
Continuous
 62
     7
370
    25
100
AcDbPolyline
 90
      104
 70
   128
 43
0.0
 10
384.4339530119
 20
-370.4942771785
 10
387.9878154346
 20
-368.5641597433
 10
391.7388959493
 20
-366.7627061436
 10
395.6732402899
 20
-365.0966179052
 10
399.7762124372
 20
-363.5720929857
 10
404.0325490653
 20
-362.194802718
 10
408.4264163223
 20
-360.9698707123
 10
412.9414687335
 20
-359.9018537962
 10
417.5609100074
 20
-358.9947250626
 10
422.2675555189
 20
-358.2518590902
 10
427.0438962377
 20
-357.676019389
 10
431.8721638626
 20
-357.2693481206
 10
436.7343969209
 20
-357.0333581288
 10
441.6125075863
 20
-356.9689273119
 10
446.4883489667
 20
-357.0762953568
 10
451.3437826119
 20
-357.3550628473
 10
456.1607459898
 20
-357.80419275
 10
460.9213196803
 20
-358.4220142722
 10
465.6077940367
 20
-359.2062290772
 10
470.2027350664
 20
-360.1539198344
 10
474.6890492871
 20
-361.2615610721
 10
479.0500473152
 20
-362.5250322919
 10
483.2695059516
 20
-363.9396332981
 10
487.331728533
 20
-365.500101682
 10
491.2216033247
 20
-367.2006323986
 10
494.9246597369
 20
-369.0348993621
 10
498.4271221565
 20
-370.9960789788
 10
501.7159611933
 20
-373.0768755317
 10
504.7789421501
 20
-375.2695483211
 10
507.6046705365
 20
-377.5659404601
 10
510.1826344574
 20
-379.9575092191
 10
512.5032437176
 20
-382.4353578053
 10
514.5578654983
 20
-384.9902684592
 10
516.3388564715
 20
-387.6127367453
 10
517.8395912338
 20
-390.2930069094
 10
519.0544869533
 20
-393.0211081705
 10
519.9790241381
 20
-395.7868918126
 10
520.6097634493
 20
-398.5800689389
 10
520.9443584951
 20
-401.3902487472
 10
520.9815645599
 20
-404.2069771838
 10
520.7212432349
 20
-407.0197758341
 10
520.1643629323
 20
-409.8181809024
 10
519.3129952836
 20
-412.5917821378
 10
518.1703074322
 20
-415.3302615618
 10
516.7405502521
 20
-418.0234318509
 10
515.0290425338
 20
-420.6612742349
 10
513.0421511986
 20
-423.2339757667
 10
510.7872676125
 20
-425.7319658277
 10
508.2727800908
 20
-428.1459517309
 10
505.508042692
 20
-430.46695329
 10
502.5033404211
 20
-432.6863362269
 10
499.2698509676
 20
-434.7958442913
 10
495.8196031248
 20
-436.7876299746
 10
492.1654320413
 20
-438.6542837032
 10
488.3209314734
 20
-440.3888614028
 10
484.3004032159
 20
-441.9849103302
 10
480.1188038979
 20
-443.4364930787
 10
475.7916893435
 20
-444.7382096651
 10
471.3351567031
 20
-445.8852176182
 10
466.7657845708
 20
-446.8732499931
 10
462.100571311
 20
-447.6986312444
 10
457.3568718235
 20
-448.3582908998
 10
452.5523329819
 20
-448.8497749819
 10
447.7048279864
 20
-449.1712551376
 10
442.8323898738
 20
-449.3215354398
 10
437.953144434
 20
-449.3000568357
 10
433.0852427804
 20
-449.1068992273
 10
428.246793827
 20
-448.7427811734
 10
423.4557969216
 20
-448.2090572172
 10
418.7300748875
 20
-447.5077128469
 10
414.0872077209
 20
-446.6413571095
 10
409.5444671927
 20
-445.6132129054
 10
405.1187525959
 20
-444.4271049984
 10
400.8265278797
 20
-443.0874457879
 10
396.6837604018
 20
-441.5992188942
 10
392.7058615293
 20
-439.967960619
 10
388.9076293074
 20
-438.1997393503
 10
385.3031934093
 20
-436.3011329873
 10
381.9059625734
 20
-434.2792044704
 10
378.7285747215
 20
-432.1414755065
 10
375.782849945
 20
-429.8958985878
 10
373.0797465337
 20
-427.5508274077
 10
370.6293202098
 20
-425.1149857853
 10
368.44068672
 20
-422.5974352113
 10
366.5219879249
 20
-420.0075411391
 10
364.8803615098
 20
-417.3549381449
 10
363.5219144329
 20
-414.6494940859
 10
362.4517002066
 20
-411.9012733919
 10
361.673700098
 20
-409.1204996243
 10
361.1908083187
 20
-406.3175174441
 10
361.0048212577
 20
-403.5027541291
 10
361.1164307992
 20
-400.6866807838
 10
361.5252217484
 20
-397.8797733859
 10
362.229673376
 20
-395.0924738154
 10
363.2271650758
 20
-392.3351510097
 10
364.5139861131
 20
-389.6180623907
 10
366.0853494291
 20
-386.9513157067
 10
367.9354094491
 20
-384.3448314302
 10
370.0572838282
 20
-381.8083058542
 10
372.4430790546
 20
-379.3511750204
 10
375.0839198131
 20
-376.9825796167
 10
377.9699820027
 20
-374.7113309737
 10
381.0905292826
 20
-372.5458782856
 10
384.4339530119
 20
-370.4942771785
  0
LWPOLYLINE
  5
E7
330
1F
100
AcDbEntity
  8
0
  6
Continuous
 62
     7
370
    25
100
AcDbPolyline
 90
       97
 70
   128
 43
0.0
 10
391.1514674331
 20
-374.3722157096
 10
387.9977890795
 20
-376.3160289378
 10
385.0710850163
 20
-378.374751926
 10
382.3838878395
 20
-380.5395689064
 10
379.94770454
 20
-382.8012098003
 10
377.7729672287
 20
-385.1499899143
 10
375.8689884647
 20
-387.5758514112
 10
374.2439213774
 20
-390.0684063797
 10
372.9047247534
 20
-392.6169813168
 10
371.8571332384
 20
-395.2106628333
 10
371.1056327799
 20
-397.8383443867
 10
370.6534414185
 20
-400.4887738414
 10
370.5024955068
 20
-403.1506016514
 10
370.6534414185
 20
-405.8124294613
 10
371.1056327799
 20
-408.462858916
 10
371.8571332384
 20
-411.0905404695
 10
372.9047247534
 20
-413.684221986
 10
374.2439213774
 20
-416.232796923
 10
375.8689884647
 20
-418.7253518915
 10
377.7729672287
 20
-421.1512133884
 10
379.94770454
 20
-423.4999935024
 10
382.3838878395
 20
-425.7616343963
 10
385.0710850163
 20
-427.9264513767
 10
387.9977890795
 20
-429.985174365
 10
391.1514674331
 20
-431.9289875931
 10
394.5186155422
 20
-433.7495673545
 10
398.0848147617
 20
-435.4391176472
 10
401.8347940789
 20
-436.9904035573
 10
405.7524955068
 20
-438.3967822404
 10
409.8211428463
 20
-439.6522313672
 10
414.023313525
 20
-440.7513749118
 10
418.3410132029
 20
-441.6895061726
 10
422.7557528271
 20
-442.4626079277
 10
427.2486278046
 20
-443.0673696366
 10
431.8003989553
 20
-443.5012016169
 10
436.3915748961
 20
-443.7622461334
 10
441.0024955068
 20
-443.8493853534
 10
445.6134161175
 20
-443.7622461334
 10
450.2045920583
 20
-443.5012016169
 10
454.7563632089
 20
-443.0673696366
 10
459.2492381865
 20
-442.4626079277
 10
463.6639778107
 20
-441.6895061726
 10
467.9816774885
 20
-440.7513749118
 10
472.1838481672
 20
-439.6522313672
 10
476.2524955068
 20
-438.3967822404
 10
480.1701969347
 20
-436.9904035573
 10
483.9201762519
 20
-435.4391176472
 10
487.4863754713
 20
-433.7495673545
 10
490.8535235804
 20
-431.9289875931
 10
494.0072019341
 20
-429.985174365
 10
496.9339059973
 20
-427.9264513767
 10
499.6211031741
 20
-425.7616343963
 10
502.0572864736
 20
-423.4999935024
 10
504.2320237848
 20
-421.1512133884
 10
506.1360025488
 20
-418.7253518915
 10
507.7610696362
 20
-416.232796923
 10
509.1002662602
 20
-413.684221986
 10
510.1478577752
 20
-411.0905404695
 10
510.8993582336
 20
-408.462858916
 10
511.3515495951
 20
-405.8124294613
 10
511.5024955068
 20
-403.1506016514
 10
511.3515495951
 20
-400.4887738414
 10
510.8993582336
 20
-397.8383443867
 10
510.1478577752
 20
-395.2106628333
 10
509.1002662602
 20
-392.6169813168
 10
507.7610696362
 20
-390.0684063797
 10
506.1360025488
 20
-387.5758514112
 10
504.2320237848
 20
-385.1499899143
 10
502.0572864736
 20
-382.8012098003
 10
499.6211031741
 20
-380.5395689064
 10
496.9339059973
 20
-378.374751926
 10
494.0072019341
 20
-376.3160289378
 10
490.8535235804
 20
-374.3722157096
 10
487.4863754713
 20
-372.5516359482
 10
483.9201762519
 20
-370.8620856556
 10
480.1701969347
 20
-369.3107997454
 10
476.2524955068
 20
-367.9044210623
 10
472.1838481672
 20
-366.6489719355
 10
467.9816774885
 20
-365.549828391
 10
463.6639778107
 20
-364.6116971301
 10
459.2492381865
 20
-363.838595375
 10
454.7563632089
 20
-363.2338336661
 10
450.2045920583
 20
-362.8000016858
 10
445.6134161175
 20
-362.5389571693
 10
441.0024955068
 20
-362.4518179493
 10
436.3915748961
 20
-362.5389571693
 10
431.8003989553
 20
-362.8000016858
 10
427.2486278046
 20
-363.2338336661
 10
422.7557528271
 20
-363.838595375
 10
418.3410132029
 20
-364.6116971301
 10
414.023313525
 20
-365.549828391
 10
409.8211428463
 20
-366.6489719355
 10
405.7524955068
 20
-367.9044210623
 10
401.8347940789
 20
-369.3107997454
 10
398.0848147617
 20
-370.8620856556
 10
394.5186155422
 20
-372.5516359482
 10
391.1514674331
 20
-374.3722157096
  0
LWPOLYLINE
  5
E8
330
1F
100
AcDbEntity
  8
0
  6
Continuous
 62
     1
370
    25
100
AcDbPolyline
 90
       14
 70
   128
 43
0.0
 10
497.5710380017
 20
-268.4266756927
 10
501.0196810777
 20
-270.2960315459
 10
504.455494975
 20
-271.9154264364
 10
507.8656982401
 20
-273.2788361089
 10
511.2376046931
 20
-274.3811885899
 10
514.5586706202
 20
-275.2183830558
 10
517.8165414383
 20
-275.7873050882
 10
520.9990976539
 20
-276.0858382597
 10
524.0944999489
 20
-276.1128720073
 10
527.0912332233
 20
-275.8683057638
 10
529.9781494326
 20
-275.3530493315
 10
532.7445090588
 20
-274.5690194983
 10
535.3800210626
 20
-273.5191329067
 10
537.5677873072
 20
-272.3873197323
  0
LWPOLYLINE
  5
E9
330
1F
100
AcDbEntity
  8
0
  6
Continuous
 62
     1
370
    25
100
AcDbPolyline
 90
       40
 70
   128
 43
0.0
 10
457.5742886963
 20
-133.8195017514
 10
456.0754309712
 20
-134.7521893536
 10
453.8087776673
 20
-136.4475038368
 10
451.7049228461
 20
-138.3907826718
 10
449.7716929859
 20
-140.5747967335
 10
448.0162798286
 20
-142.9914213461
 10
446.4452136264
 20
-145.6316665076
 10
445.0643388489
 20
-148.4857103323
 10
443.8787924409
 20
-151.5429355898
 10
442.8929847129
 20
-154.7919692014
 10
442.1105829343
 20
-158.2207245487
 10
441.5344976913
 20
-161.8164464365
 10
441.1668720588
 20
-165.5657585432
 10
441.0090736281
 20
-169.4547131816
 10
441.06168942
 20
-173.468843185
 10
441.3245237001
 20
-177.5932157261
 10
441.7965987077
 20
-181.8124878682
 10
442.4761582928
 20
-186.1109636418
 10
443.360674449
 20
-190.4726524346
 10
444.4468567182
 20
-194.8813284779
 10
445.7306644309
 20
-199.3205912073
 10
447.2073217383
 20
-203.7739262738
 10
448.871335378
 20
-208.2247669785
 10
450.7165151101
 20
-212.6565559016
 10
452.7359967448
 20
-217.0528064973
 10
454.9222676777
 20
-221.3971644246
 10
457.2671948374
 20
-225.6734683866
 10
459.7620549409
 20
-229.8658102518
 10
462.3975669446
 20
-233.958594233
 10
465.1639265709
 20
-237.9365949051
 10
468.0508427801
 20
-241.7850138442
 10
471.0475760546
 20
-245.4895346792
 10
474.1429783495
 20
-249.0363763492
 10
477.3255345651
 20
-252.4123443703
 10
480.5834053832
 20
-255.6048799196
 10
483.9044713104
 20
-258.6021065553
 10
487.2763777633
 20
-261.3928743974
 10
490.6865810284
 20
-263.9668016062
 10
494.1223949257
 20
-266.3143130036
 10
497.5710380017
 20
-268.4266756927
  0
LWPOLYLINE
  5
EA
330
1F
100
AcDbEntity
  8
0
  6
Continuous
 62
     1
370
    25
100
AcDbPolyline
 90
       14
 70
   128
 43
0.0
 10
497.5710380017
 20
-268.4266756927
 10
500.914461731
 20
-270.4782767998
 10
504.0350090108
 20
-272.643729488
 10
506.9210712005
 20
-274.914978131
 10
509.561911959
 20
-277.2835735346
 10
511.9477071853
 20
-279.7407043685
 10
514.0695815645
 20
-282.2772299445
 10
515.9196415845
 20
-284.8837142209
 10
517.4910049005
 20
-287.550460905
 10
518.7778259378
 20
-290.267549524
 10
519.7753176376
 20
-293.0248723297
 10
520.4797692652
 20
-295.8121719002
 10
520.8885602144
 20
-298.6190792981
 10
521.0024955068
 20
-301.0830001656
  0
LWPOLYLINE
  5
EB
330
1F
100
AcDbEntity
  8
0
  6
Continuous
 62
     1
370
    25
100
AcDbPolyline
 90
       40
 70
   128
 43
0.0
 10
361.0024955068
 20
-301.0830001656
 10
361.0606325185
 20
-299.3226472615
 10
361.3952275643
 20
-296.5124674532
 10
362.0259668754
 20
-293.7192903269
 10
362.9505040603
 20
-290.9535066848
 10
364.1653997798
 20
-288.2254054237
 10
365.6661345421
 20
-285.5451352596
 10
367.4471255153
 20
-282.9226669735
 10
369.501747296
 20
-280.3677563196
 10
371.8223565562
 20
-277.8899077334
 10
374.400320477
 20
-275.4983389743
 10
377.2260488635
 20
-273.2019468354
 10
380.2890298203
 20
-271.009274046
 10
383.5778688571
 20
-268.928477493
 10
387.0803312767
 20
-266.9672978763
 10
390.7833876889
 20
-265.1330309129
 10
394.6732624805
 20
-263.4325001963
 10
398.735485062
 20
-261.8720318124
 10
402.9549436984
 20
-260.4574308062
 10
407.3159417265
 20
-259.1939595863
 10
411.8022559472
 20
-258.0863183487
 10
416.3971969769
 20
-257.1386275915
 10
421.0836713332
 20
-256.3544127865
 10
425.8442450238
 20
-255.7365912643
 10
430.6612084017
 20
-255.2874613616
 10
435.5166420469
 20
-255.0086938711
 10
440.3924834273
 20
-254.9013258262
 10
445.2705940926
 20
-254.9657566431
 10
450.1328271509
 20
-255.2017466349
 10
454.9610947758
 20
-255.6084179032
 10
459.7374354947
 20
-256.1842576044
 10
464.4440810062
 20
-256.9271235769
 10
469.0635222801
 20
-257.8342523105
 10
473.5785746912
 20
-258.9022692266
 10
477.9724419483
 20
-260.1272012323
 10
482.2287785763
 20
-261.5044915
 10
486.3317507236
 20
-263.0290164195
 10
490.2660950643
 20
-264.6951046579
 10
494.0171755789
 20
-266.4965582575
 10
497.5710380017
 20
-268.4266756927
  0
ENDSEC
  0
SECTION
  2
OBJECTS
  0
DICTIONARY
  5
C
330
0
100
AcDbDictionary
281
     1
  3
ACAD_GROUP
350
D
  3
ACAD_LAYOUT
350
1A
  3
ACAD_MLINESTYLE
350
17
  3
ACAD_PLOTSETTINGS
350
19
  3
ACAD_PLOTSTYLENAME
350
E
  3
ACAD_SCALELIST
350
47
  3
DWGPROPS
350
EC
  0
DICTIONARY
  5
D
102
{ACAD_REACTORS
330
C
102
}
330
C
100
AcDbDictionary
281
     1
  0
DICTIONARY
  5
1A
102
{ACAD_REACTORS
330
C
102
}
330
C
100
AcDbDictionary
281
     1
  3
Layout1
350
1E
  3
Layout2
350
26
  3
Model
350
22
  0
DICTIONARY
  5
17
102
{ACAD_REACTORS
330
C
102
}
330
C
100
AcDbDictionary
281
     1
  3
Standard
350
18
  0
DICTIONARY
  5
19
102
{ACAD_REACTORS
330
C
102
}
330
C
100
AcDbDictionary
281
     1
  0
ACDBDICTIONARYWDFLT
  5
E
102
{ACAD_REACTORS
330
C
102
}
330
C
100
AcDbDictionary
281
     1
  3
Normal
350
F
100
AcDbDictionaryWithDefault
340
F
  0
DICTIONARY
  5
47
102
{ACAD_REACTORS
330
C
102
}
330
C
100
AcDbDictionary
281
     1
  3
A0
350
48
  3
A1
350
49
  3
A2
350
4A
  3
A3
350
4B
  3
A4
350
4C
  3
A5
350
4D
  3
A6
350
4E
  3
A7
350
4F
  3
A8
350
50
  3
A9
350
51
  3
B0
350
52
  3
B1
350
53
  3
B2
350
54
  3
B3
350
55
  3
B4
350
56
  3
B5
350
57
  3
B6
350
58
  3
B7
350
59
  3
B8
350
5A
  3
B9
350
5B
  3
C0
350
5C
  3
C1
350
5D
  3
C2
350
5E
  3
C3
350
5F
  3
C4
350
60
  3
C5
350
61
  3
C6
350
62
  3
C7
350
63
  3
C8
350
64
  3
C9
350
65
  3
D0
350
66
  3
D1
350
67
  3
D2
350
68
  0
XRECORD
  5
EC
102
{ACAD_REACTORS
330
C
102
}
330
C
100
AcDbXrecord
280
     1
  1
DWGPROPS COOKIE
  2

  3

  4

  6

  7

  8
b.kav
  9

300
=
301
=
302
=
303
=
304
=
305
=
306
=
307
=
308
=
309
=
 40
0.0
 41
2459935.574862916
 42
2459935.57486309
  1

 90
        0
  0
LAYOUT
  5
1E
102
{ACAD_REACTORS
330
1A
102
}
330
1A
100
AcDbPlotSettings
  1

  2
none_device
  4

  6

 40
0.0
 41
0.0
 42
0.0
 43
0.0
 44
0.0
 45
0.0
 46
0.0
 47
0.0
 48
0.0
 49
0.0
140
0.0
141
0.0
142
1.0
143
1.0
 70
   688
 72
     1
 73
     0
 74
     5
  7

 75
    16
147
1.0
148
0.0
149
0.0
100
AcDbLayout
  1
Layout1
 70
     1
 71
     1
 10
0.0
 20
0.0
 11
420.0
 21
297.0
 12
0.0
 22
0.0
 32
0.0
 14
1.0000000000E+20
 24
1.0000000000E+20
 34
1.0000000000E+20
 15
-1.0000000000E+20
 25
-1.0000000000E+20
 35
-1.0000000000E+20
146
0.0
 13
0.0
 23
0.0
 33
0.0
 16
1.0
 26
0.0
 36
0.0
 17
0.0
 27
1.0
 37
0.0
 76
     0
330
1B
  0
LAYOUT
  5
26
102
{ACAD_REACTORS
330
1A
102
}
330
1A
100
AcDbPlotSettings
  1

  2
none_device
  4

  6

 40
0.0
 41
0.0
 42
0.0
 43
0.0
 44
0.0
 45
0.0
 46
0.0
 47
0.0
 48
0.0
 49
0.0
140
0.0
141
0.0
142
1.0
143
1.0
 70
   688
 72
     1
 73
     0
 74
     5
  7

 75
    16
147
1.0
148
0.0
149
0.0
100
AcDbLayout
  1
Layout2
 70
     1
 71
     2
 10
0.0
 20
0.0
 11
0.0
 21
0.0
 12
0.0
 22
0.0
 32
0.0
 14
0.0
 24
0.0
 34
0.0
 15
0.0
 25
0.0
 35
0.0
146
0.0
 13
0.0
 23
0.0
 33
0.0
 16
1.0
 26
0.0
 36
0.0
 17
0.0
 27
1.0
 37
0.0
 76
     0
330
23
  0
LAYOUT
  5
22
102
{ACAD_REACTORS
330
1A
102
}
330
1A
100
AcDbPlotSettings
  1

  2
none_device
  4
Letter_(8.50_x_11.00_Inches)
  6

 40
6.35
 41
6.35
 42
6.35000508
 43
6.35000508
 44
215.9
 45
279.4
 46
0.0
 47
0.0
 48
0.0
 49
0.0
140
0.0
141
0.0
142
1.0
143
1.0
 70
  1712
 72
     1
 73
     0
 74
     0
  7

 75
     0
147
1.0
148
0.0
149
0.0
100
AcDbLayout
  1
Model
 70
     1
 71
     0
 10
0.0
 20
0.0
 11
279.4
 21
215.9
 12
0.0
 22
0.0
 32
0.0
 14
0.0
 24
0.0
 34
0.0
 15
279.4
 25
215.9
 35
0.0
146
0.0
 13
0.0
 23
0.0
 33
0.0
 16
1.0
 26
0.0
 36
0.0
 17
0.0
 27
1.0
 37
0.0
 76
     0
330
1F
331
29
  0
MLINESTYLE
  5
18
102
{ACAD_REACTORS
330
17
102
}
330
17
100
AcDbMlineStyle
  2
Standard
 70
     0
  3

 62
   256
 51
90.0
 52
90.0
 71
     2
 49
0.5
 62
   256
  6
BYLAYER
 49
-0.5
 62
   256
  6
BYLAYER
  0
ACDBPLACEHOLDER
  5
F
102
{ACAD_REACTORS
330
E
102
}
330
E
  0
SCALE
  5
48
102
{ACAD_REACTORS
330
47
102
}
330
47
100
AcDbScale
 70
     0
300
1:1
140
1.0
141
1.0
290
     1
  0
SCALE
  5
49
102
{ACAD_REACTORS
330
47
102
}
330
47
100
AcDbScale
 70
     0
300
1:2
140
1.0
141
2.0
290
     0
  0
SCALE
  5
4A
102
{ACAD_REACTORS
330
47
102
}
330
47
100
AcDbScale
 70
     0
300
1:4
140
1.0
141
4.0
290
     0
  0
SCALE
  5
4B
102
{ACAD_REACTORS
330
47
102
}
330
47
100
AcDbScale
 70
     0
300
1:5
140
1.0
141
5.0
290
     0
  0
SCALE
  5
4C
102
{ACAD_REACTORS
330
47
102
}
330
47
100
AcDbScale
 70
     0
300
1:8
140
1.0
141
8.0
290
     0
  0
SCALE
  5
4D
102
{ACAD_REACTORS
330
47
102
}
330
47
100
AcDbScale
 70
     0
300
1:10
140
1.0
141
10.0
290
     0
  0
SCALE
  5
4E
102
{ACAD_REACTORS
330
47
102
}
330
47
100
AcDbScale
 70
     0
300
1:16
140
1.0
141
16.0
290
     0
  0
SCALE
  5
4F
102
{ACAD_REACTORS
330
47
102
}
330
47
100
AcDbScale
 70
     0
300
1:20
140
1.0
141
20.0
290
     0
  0
SCALE
  5
50
102
{ACAD_REACTORS
330
47
102
}
330
47
100
AcDbScale
 70
     0
300
1:30
140
1.0
141
30.0
290
     0
  0
SCALE
  5
51
102
{ACAD_REACTORS
330
47
102
}
330
47
100
AcDbScale
 70
     0
300
1:40
140
1.0
141
40.0
290
     0
  0
SCALE
  5
52
102
{ACAD_REACTORS
330
47
102
}
330
47
100
AcDbScale
 70
     0
300
1:50
140
1.0
141
50.0
290
     0
  0
SCALE
  5
53
102
{ACAD_REACTORS
330
47
102
}
330
47
100
AcDbScale
 70
     0
300
1:100
140
1.0
141
100.0
290
     0
  0
SCALE
  5
54
102
{ACAD_REACTORS
330
47
102
}
330
47
100
AcDbScale
 70
     0
300
2:1
140
2.0
141
1.0
290
     0
  0
SCALE
  5
55
102
{ACAD_REACTORS
330
47
102
}
330
47
100
AcDbScale
 70
     0
300
4:1
140
4.0
141
1.0
290
     0
  0
SCALE
  5
56
102
{ACAD_REACTORS
330
47
102
}
330
47
100
AcDbScale
 70
     0
300
8:1
140
8.0
141
1.0
290
     0
  0
SCALE
  5
57
102
{ACAD_REACTORS
330
47
102
}
330
47
100
AcDbScale
 70
     0
300
10:1
140
10.0
141
1.0
290
     0
  0
SCALE
  5
58
102
{ACAD_REACTORS
330
47
102
}
330
47
100
AcDbScale
 70
     0
300
100:1
140
100.0
141
1.0
290
     0
  0
SCALE
  5
59
102
{ACAD_REACTORS
330
47
102
}
330
47
100
AcDbScale
 70
     0
300
1/128" = 1'-0"
140
0.0078125
141
12.0
290
     0
  0
SCALE
  5
5A
102
{ACAD_REACTORS
330
47
102
}
330
47
100
AcDbScale
 70
     0
300
1/64" = 1'-0"
140
0.015625
141
12.0
290
     0
  0
SCALE
  5
5B
102
{ACAD_REACTORS
330
47
102
}
330
47
100
AcDbScale
 70
     0
300
1/32" = 1'-0"
140
0.03125
141
12.0
290
     0
  0
SCALE
  5
5C
102
{ACAD_REACTORS
330
47
102
}
330
47
100
AcDbScale
 70
     0
300
1/16" = 1'-0"
140
0.0625
141
12.0
290
     0
  0
SCALE
  5
5D
102
{ACAD_REACTORS
330
47
102
}
330
47
100
AcDbScale
 70
     0
300
3/32" = 1'-0"
140
0.09375
141
12.0
290
     0
  0
SCALE
  5
5E
102
{ACAD_REACTORS
330
47
102
}
330
47
100
AcDbScale
 70
     0
300
1/8" = 1'-0"
140
0.125
141
12.0
290
     0
  0
SCALE
  5
5F
102
{ACAD_REACTORS
330
47
102
}
330
47
100
AcDbScale
 70
     0
300
3/16" = 1'-0"
140
0.1875
141
12.0
290
     0
  0
SCALE
  5
60
102
{ACAD_REACTORS
330
47
102
}
330
47
100
AcDbScale
 70
     0
300
1/4" = 1'-0"
140
0.25
141
12.0
290
     0
  0
SCALE
  5
61
102
{ACAD_REACTORS
330
47
102
}
330
47
100
AcDbScale
 70
     0
300
3/8" = 1'-0"
140
0.375
141
12.0
290
     0
  0
SCALE
  5
62
102
{ACAD_REACTORS
330
47
102
}
330
47
100
AcDbScale
 70
     0
300
1/2" = 1'-0"
140
0.5
141
12.0
290
     0
  0
SCALE
  5
63
102
{ACAD_REACTORS
330
47
102
}
330
47
100
AcDbScale
 70
     0
300
3/4" = 1'-0"
140
0.75
141
12.0
290
     0
  0
SCALE
  5
64
102
{ACAD_REACTORS
330
47
102
}
330
47
100
AcDbScale
 70
     0
300
1" = 1'-0"
140
1.0
141
12.0
290
     0
  0
SCALE
  5
65
102
{ACAD_REACTORS
330
47
102
}
330
47
100
AcDbScale
 70
     0
300
1-1/2" = 1'-0"
140
1.5
141
12.0
290
     0
  0
SCALE
  5
66
102
{ACAD_REACTORS
330
47
102
}
330
47
100
AcDbScale
 70
     0
300
3" = 1'-0"
140
3.0
141
12.0
290
     0
  0
SCALE
  5
67
102
{ACAD_REACTORS
330
47
102
}
330
47
100
AcDbScale
 70
     0
300
6" = 1'-0"
140
6.0
141
12.0
290
     0
  0
SCALE
  5
68
102
{ACAD_REACTORS
330
47
102
}
330
47
100
AcDbScale
 70
     0
300
1'-0" = 1'-0"
140
12.0
141
12.0
290
     0
  0
ENDSEC
  0
EOF
